  0
SECTION
  2
HEADER
  9
$ACADVER
  1
AC1015
  9
$ACADMAINTVER
 70
     6
  9
$DWGCODEPAGE
  3
ANSI_1254
  9
$INSBASE
 10
0.0
 20
0.0
 30
0.0
  9
$EXTMIN
 10
0.0
 20
0.0
 30
0.0
  9
$EXTMAX
 10
279.4
 20
215.9
 30
0.0
  9
$LIMMIN
 10
0.0
 20
0.0
  9
$LIMMAX
 10
279.4
 20
215.9
  9
$ORTHOMODE
 70
     0
  9
$REGENMODE
 70
     1
  9
$FILLMODE
 70
     1
  9
$QTEXTMODE
 70
     0
  9
$MIRRTEXT
 70
     1
  9
$LTSCALE
 40
1.0
  9
$ATTMODE
 70
     1
  9
$TEXTSIZE
 40
3.5
  9
$TRACEWID
 40
1.0
  9
$TEXTSTYLE
  7
Standard
  9
$CLAYER
  8
0
  9
$CELTYPE
  6
ByLayer
  9
$CECOLOR
 62
   256
  9
$CELTSCALE
 40
1.0
  9
$DISPSILH
 70
     0
  9
$DIMSCALE
 40
1.0
  9
$DIMASZ
 40
3.5
  9
$DIMEXO
 40
1.0
  9
$DIMDLI
 40
3.75
  9
$DIMRND
 40
0.0
  9
$DIMDLE
 40
0.0
  9
$DIMEXE
 40
1.0
  9
$DIMTP
 40
0.0
  9
$DIMTM
 40
0.0
  9
$DIMTXT
 40
3.5
  9
$DIMCEN
 40
2.5
  9
$DIMTSZ
 40
0.0
  9
$DIMTOL
 70
     0
  9
$DIMLIM
 70
     0
  9
$DIMTIH
 70
     1
  9
$DIMTOH
 70
     1
  9
$DIMSE1
 70
     0
  9
$DIMSE2
 70
     0
  9
$DIMTAD
 70
     1
  9
$DIMZIN
 70
     0
  9
$DIMBLK
  1

  9
$DIMASO
 70
     1
  9
$DIMSHO
 70
     1
  9
$DIMPOST
  1

  9
$DIMAPOST
  1

  9
$DIMALT
 70
     0
  9
$DIMALTD
 70
     3
  9
$DIMALTF
 40
0.0393700787
  9
$DIMLFAC
 40
1.0
  9
$DIMTOFL
 70
     1
  9
$DIMTVP
 40
0.0
  9
$DIMTIX
 70
     0
  9
$DIMSOXD
 70
     0
  9
$DIMSAH
 70
     0
  9
$DIMBLK1
  1

  9
$DIMBLK2
  1

  9
$DIMSTYLE
  2
ISO-25
  9
$DIMCLRD
 70
     0
  9
$DIMCLRE
 70
     0
  9
$DIMCLRT
 70
     0
  9
$DIMTFAC
 40
1.0
  9
$DIMGAP
 40
1.524
  9
$DIMJUST
 70
     0
  9
$DIMSD1
 70
     0
  9
$DIMSD2
 70
     0
  9
$DIMTOLJ
 70
     0
  9
$DIMTZIN
 70
     0
  9
$DIMALTZ
 70
     0
  9
$DIMALTTZ
 70
     0
  9
$DIMUPT
 70
     0
  9
$DIMDEC
 70
     2
  9
$DIMTDEC
 70
     2
  9
$DIMALTU
 70
     2
  9
$DIMALTTD
 70
     3
  9
$DIMTXSTY
  7
Standard
  9
$DIMAUNIT
 70
     0
  9
$DIMADEC
 70
     2
  9
$DIMALTRND
 40
0.0
  9
$DIMAZIN
 70
     0
  9
$DIMDSEP
 70
    44
  9
$DIMATFIT
 70
     3
  9
$DIMFRAC
 70
     0
  9
$DIMLDRBLK
  1

  9
$DIMLUNIT
 70
     2
  9
$DIMLWD
 70
    -2
  9
$DIMLWE
 70
    -2
  9
$DIMTMOVE
 70
     0
  9
$LUNITS
 70
     2
  9
$LUPREC
 70
     2
  9
$SKETCHINC
 40
1.0
  9
$FILLETRAD
 40
10.0
  9
$AUNITS
 70
     0
  9
$AUPREC
 70
     2
  9
$MENU
  1
.
  9
$ELEVATION
 40
0.0
  9
$PELEVATION
 40
0.0
  9
$THICKNESS
 40
0.0
  9
$LIMCHECK
 70
     0
  9
$CHAMFERA
 40
0.0
  9
$CHAMFERB
 40
0.0
  9
$CHAMFERC
 40
0.0
  9
$CHAMFERD
 40
0.0
  9
$SKPOLY
 70
     0
  9
$TDCREATE
 40
2459935.699835266
  9
$TDUCREATE
 40
2459935.574835266
  9
$TDUPDATE
 40
2459935.69983544
  9
$TDUUPDATE
 40
2459935.57483544
  9
$TDINDWG
 40
0.0000000116
  9
$TDUSRTIMER
 40
0.0000000116
  9
$USRTIMER
 70
     1
  9
$ANGBASE
 50
0.0
  9
$ANGDIR
 70
     0
  9
$PDMODE
 70
     0
  9
$PDSIZE
 40
-1.0
  9
$PLINEWID
 40
0.0
  9
$SPLFRAME
 70
     0
  9
$SPLINETYPE
 70
     6
  9
$SPLINESEGS
 70
     8
  9
$HANDSEED
  5
ED
  9
$SURFTAB1
 70
     6
  9
$SURFTAB2
 70
     6
  9
$SURFTYPE
 70
     6
  9
$SURFU
 70
     6
  9
$SURFV
 70
     6
  9
$UCSBASE
  2

  9
$UCSNAME
  2

  9
$UCSORG
 10
0.0
 20
0.0
 30
0.0
  9
$UCSXDIR
 10
1.0
 20
0.0
 30
0.0
  9
$UCSYDIR
 10
0.0
 20
1.0
 30
0.0
  9
$UCSORTHOREF
  2

  9
$UCSORTHOVIEW
 70
     0
  9
$UCSORGTOP
 10
0.0
 20
0.0
 30
0.0
  9
$UCSORGBOTTOM
 10
0.0
 20
0.0
 30
0.0
  9
$UCSORGLEFT
 10
0.0
 20
0.0
 30
0.0
  9
$UCSORGRIGHT
 10
0.0
 20
0.0
 30
0.0
  9
$UCSORGFRONT
 10
0.0
 20
0.0
 30
0.0
  9
$UCSORGBACK
 10
0.0
 20
0.0
 30
0.0
  9
$PUCSBASE
  2

  9
$PUCSNAME
  2

  9
$PUCSORG
 10
0.0
 20
0.0
 30
0.0
  9
$PUCSXDIR
 10
1.0
 20
0.0
 30
0.0
  9
$PUCSYDIR
 10
0.0
 20
1.0
 30
0.0
  9
$PUCSORTHOREF
  2

  9
$PUCSORTHOVIEW
 70
     0
  9
$PUCSORGTOP
 10
0.0
 20
0.0
 30
0.0
  9
$PUCSORGBOTTOM
 10
0.0
 20
0.0
 30
0.0
  9
$PUCSORGLEFT
 10
0.0
 20
0.0
 30
0.0
  9
$PUCSORGRIGHT
 10
0.0
 20
0.0
 30
0.0
  9
$PUCSORGFRONT
 10
0.0
 20
0.0
 30
0.0
  9
$PUCSORGBACK
 10
0.0
 20
0.0
 30
0.0
  9
$USERI1
 70
     0
  9
$USERI2
 70
     0
  9
$USERI3
 70
     0
  9
$USERI4
 70
     0
  9
$USERI5
 70
     0
  9
$USERR1
 40
0.0
  9
$USERR2
 40
0.0
  9
$USERR3
 40
0.0
  9
$USERR4
 40
0.0
  9
$USERR5
 40
0.0
  9
$WORLDVIEW
 70
     1
  9
$SHADEDGE
 70
     3
  9
$SHADEDIF
 70
    70
  9
$TILEMODE
 70
     1
  9
$MAXACTVP
 70
    64
  9
$PINSBASE
 10
0.0
 20
0.0
 30
0.0
  9
$PLIMCHECK
 70
     0
  9
$PEXTMIN
 10
1.0000000000E+20
 20
1.0000000000E+20
 30
1.0000000000E+20
  9
$PEXTMAX
 10
-1.0000000000E+20
 20
-1.0000000000E+20
 30
-1.0000000000E+20
  9
$PLIMMIN
 10
0.0
 20
0.0
  9
$PLIMMAX
 10
420.0
 20
297.0
  9
$UNITMODE
 70
     0
  9
$VISRETAIN
 70
     1
  9
$PLINEGEN
 70
     0
  9
$PSLTSCALE
 70
     1
  9
$TREEDEPTH
 70
  3020
  9
$CMLSTYLE
  2
Standard
  9
$CMLJUST
 70
     0
  9
$CMLSCALE
 40
20.0
  9
$PROXYGRAPHICS
 70
     1
  9
$MEASUREMENT
 70
     1
  9
$CELWEIGHT
370
    -1
  9
$ENDCAPS
280
     0
  9
$JOINSTYLE
280
     0
  9
$LWDISPLAY
290
     1
  9
$INSUNITS
 70
     4
  9
$HYPERLINKBASE
  1

  9
$STYLESHEET
  1

  9
$XEDIT
290
     1
  9
$CEPSNTYPE
380
     0
  9
$PSTYLEMODE
290
     1
  9
$FINGERPRINTGUID
  2
{9c50ba1c-d9f0-43a9-adf3-5e52ce2a5105}
  9
$VERSIONGUID
  2
{FAEB1C32-E019-11D5-929B-00C0DF256EC4}
  9
$EXTNAMES
290
     1
  9
$PSVPSCALE
 40
0.0
  9
$OLESTARTUP
290
     0
  0
ENDSEC
  0
SECTION
  2
CLASSES
  0
CLASS
  1
ACDBDICTIONARYWDFLT
  2
AcDbDictionaryWithDefault
  3
ObjectDBX Classes
 90
        0
280
     0
281
     0
  0
CLASS
  1
VISUALSTYLE
  2
AcDbVisualStyle
  3
ObjectDBX Classes
 90
     4095
280
     0
281
     0
  0
CLASS
  1
MATERIAL
  2
AcDbMaterial
  3
ObjectDBX Classes
 90
     1153
280
     0
281
     0
  0
CLASS
  1
SCALE
  2
AcDbScale
  3
ObjectDBX Classes
 90
     1153
280
     0
281
     0
  0
CLASS
  1
TABLESTYLE
  2
AcDbTableStyle
  3
ObjectDBX Classes
 90
     4095
280
     0
281
     0
  0
CLASS
  1
MLEADERSTYLE
  2
AcDbMLeaderStyle
  3
ACDB_MLEADERSTYLE_CLASS
 90
     4095
280
     0
281
     0
  0
CLASS
  1
SUN
  2
AcDbSun
  3
SCENEOE
 90
     1153
280
     0
281
     0
  0
CLASS
  1
ACDBPLACEHOLDER
  2
AcDbPlaceHolder
  3
ObjectDBX Classes
 90
        0
280
     0
281
     0
  0
CLASS
  1
LAYOUT
  2
AcDbLayout
  3
ObjectDBX Classes
 90
        0
280
     0
281
     0
  0
ENDSEC
  0
SECTION
  2
TABLES
  0
TABLE
  2
VPORT
  5
8
330
0
100
AcDbSymbolTable
 70
     1
  0
VPORT
  5
29
330
8
100
AcDbSymbolTableRecord
100
AcDbViewportTableRecord
  2
*Active
 70
     0
 10
0.0
 20
0.0
 11
1.0
 21
1.0
 12
139.7
 22
107.95
 13
0.0
 23
0.0
 14
10.0
 24
10.0
 15
10.0
 25
10.0
 16
0.0
 26
0.0
 36
1.0
 17
0.0
 27
0.0
 37
0.0
 40
215.9
 41
1.2941176471
 42
50.0
 43
0.0
 44
0.0
 50
0.0
 51
0.0
 71
     0
 72
  2000
 73
     1
 74
     3
 75
     0
 76
     0
 77
     0
 78
     0
281
     0
 65
     1
110
0.0
120
0.0
130
0.0
111
1.0
121
0.0
131
0.0
112
0.0
122
1.0
132
0.0
 79
     0
146
0.0
  0
ENDTAB
  0
TABLE
  2
LTYPE
  5
5
330
0
100
AcDbSymbolTable
 70
     6
  0
LTYPE
  5
14
330
5
100
AcDbSymbolTableRecord
100
AcDbLinetypeTableRecord
  2
ByBlock
 70
     0
  3

 72
    65
 73
     0
 40
0.0
  0
LTYPE
  5
15
330
5
100
AcDbSymbolTableRecord
100
AcDbLinetypeTableRecord
  2
ByLayer
 70
     0
  3

 72
    65
 73
     0
 40
0.0
  0
LTYPE
  5
16
330
5
100
AcDbSymbolTableRecord
100
AcDbLinetypeTableRecord
  2
Continuous
 70
     0
  3
Solid line
 72
    65
 73
     0
 40
0.0
  0
LTYPE
  5
6E
330
5
100
AcDbSymbolTableRecord
100
AcDbLinetypeTableRecord
  2
HIDDEN
 70
     0
  3
Hidden __ __ __ __ __ __ __ __ __ __ __ __ __ __
 72
    65
 73
     2
 40
1.905
 49
1.27
 74
     0
 49
-0.635
 74
     0
  0
LTYPE
  5
6F
330
5
100
AcDbSymbolTableRecord
100
AcDbLinetypeTableRecord
  2
PHANTOM
 70
     0
  3
Phantom ______  __  __  ______  __  __  ______
 72
    65
 73
     6
 40
12.7
 49
6.35
 74
     0
 49
-1.27
 74
     0
 49
1.27
 74
     0
 49
-1.27
 74
     0
 49
1.27
 74
     0
 49
-1.27
 74
     0
  0
LTYPE
  5
70
330
5
100
AcDbSymbolTableRecord
100
AcDbLinetypeTableRecord
  2
CENTER
 70
     0
  3
Center ____ _ ____ _ ____ _ ____ _ ____ _ ____
 72
    65
 73
     4
 40
10.16
 49
6.35
 74
     0
 49
-1.27
 74
     0
 49
1.27
 74
     0
 49
-1.27
 74
     0
  0
LTYPE
  5
71
330
5
100
AcDbSymbolTableRecord
100
AcDbLinetypeTableRecord
  2
CENTERX2
 70
     0
  3
Center (2x) ________  __  ________  __  _____
 72
    65
 73
     4
 40
20.32
 49
12.7
 74
     0
 49
-2.54
 74
     0
 49
2.54
 74
     0
 49
-2.54
 74
     0
  0
LTYPE
  5
72
330
5
100
AcDbSymbolTableRecord
100
AcDbLinetypeTableRecord
  2
DOT2
 70
     0
  3
Dot (.5x) ........................................
 72
    65
 73
     2
 40
0.635
 49
0.0
 74
     0
 49
-0.635
 74
     0
  0
ENDTAB
  0
TABLE
  2
LAYER
  5
2
330
0
100
AcDbSymbolTable
 70
    17
  0
LAYER
  5
10
330
2
100
AcDbSymbolTableRecord
100
AcDbLayerTableRecord
  2
0
 70
     0
 62
     7
  6
Continuous
370
    -3
390
F
  0
LAYER
  5
73
330
2
100
AcDbSymbolTableRecord
100
AcDbLayerTableRecord
  2
FORMAT
 70
     0
 62
     7
  6
Continuous
370
    -3
390
F
  0
LAYER
  5
74
330
2
100
AcDbSymbolTableRecord
100
AcDbLayerTableRecord
  2
YARDIMCI_GEOMETRI
 70
     0
 62
    -6
  6
Continuous
290
     0
370
    -3
390
F
  0
LAYER
  5
75
330
2
100
AcDbSymbolTableRecord
100
AcDbLayerTableRecord
  2
SAYFA_CERCEVESI
 70
     0
 62
     7
  6
Continuous
370
    25
390
F
  0
LAYER
  5
76
330
2
100
AcDbSymbolTableRecord
100
AcDbLayerTableRecord
  2
ANTET
 70
     0
 62
     7
  6
Continuous
370
    -3
390
F
  0
LAYER
  5
77
330
2
100
AcDbSymbolTableRecord
100
AcDbLayerTableRecord
  2
OLCU
 70
     0
 62
   150
  6
Continuous
370
    -3
390
F
  0
LAYER
  5
78
330
2
100
AcDbSymbolTableRecord
100
AcDbLayerTableRecord
  2
METIN
 70
     0
 62
    96
  6
Continuous
370
    -3
390
F
  0
LAYER
  5
79
330
2
100
AcDbSymbolTableRecord
100
AcDbLayerTableRecord
  2
BALON
 70
     0
 62
     5
  6
Continuous
370
    -3
390
F
  0
LAYER
  5
7A
330
2
100
AcDbSymbolTableRecord
100
AcDbLayerTableRecord
  2
VURGU
 70
     0
 62
     7
  6
Continuous
370
    -3
390
F
  0
LAYER
  5
7B
330
2
100
AcDbSymbolTableRecord
100
AcDbLayerTableRecord
  2
SILIK
 70
     0
 62
     7
  6
Continuous
370
    -3
390
F
  0
LAYER
  5
7C
330
2
100
AcDbSymbolTableRecord
100
AcDbLayerTableRecord
  2
MODEL
 70
     0
 62
     7
  6
Continuous
370
    -3
390
F
  0
LAYER
  5
7D
330
2
100
AcDbSymbolTableRecord
100
AcDbLayerTableRecord
  2
DETAYLANDıRMA
 70
     0
 62
   190
  6
Continuous
370
    -3
390
F
  0
LAYER
  5
7E
330
2
100
AcDbSymbolTableRecord
100
AcDbLayerTableRecord
  2
TOLERANS
 70
     0
 62
   230
  6
Continuous
370
    -3
390
F
  0
LAYER
  5
7F
330
2
100
AcDbSymbolTableRecord
100
AcDbLayerTableRecord
  2
MERKEZ_CIZGILERI
 70
     0
 62
    30
  6
Continuous
370
    -3
390
F
  0
LAYER
  5
80
330
2
100
AcDbSymbolTableRecord
100
AcDbLayerTableRecord
  2
KESIT-DETAY_CIZGILERI
 70
     0
 62
     7
  6
Continuous
370
    -3
390
F
  0
LAYER
  5
81
330
2
100
AcDbSymbolTableRecord
100
AcDbLayerTableRecord
  2
\U+041E\U+0421\U+0415\U+0412\U+042B\U+0415
 70
     0
 62
     7
  6
Continuous
370
    -3
390
F
  0
LAYER
  5
82
330
2
100
AcDbSymbolTableRecord
100
AcDbLayerTableRecord
  2
\U+0412\U+041E\U+0414\U+042F\U+041D\U+042B\U+0415_\U+0417\U+041D\U+0410\U+041A\U+0418
 70
     0
 62
    11
  6
Continuous
370
    -3
390
F
  0
ENDTAB
  0
TABLE
  2
STYLE
  5
3
330
0
100
AcDbSymbolTable
 70
     1
  0
STYLE
  5
11
330
3
100
AcDbSymbolTableRecord
100
AcDbTextStyleTableRecord
  2
Standard
 70
     0
 40
0.0
 41
1.0
 50
0.0
 71
     0
 42
3.5
  3
txt
  4

  0
ENDTAB
  0
TABLE
  2
VIEW
  5
6
330
0
100
AcDbSymbolTable
 70
     0
  0
ENDTAB
  0
TABLE
  2
UCS
  5
7
330
0
100
AcDbSymbolTable
 70
     0
  0
ENDTAB
  0
TABLE
  2
APPID
  5
9
330
0
100
AcDbSymbolTable
 70
     1
  0
APPID
  5
12
330
9
100
AcDbSymbolTableRecord
100
AcDbRegAppTableRecord
  2
ACAD
 70
     0
  0
ENDTAB
  0
TABLE
  2
DIMSTYLE
  5
A
330
0
100
AcDbSymbolTable
 70
     1
100
AcDbDimStyleTable
  0
DIMSTYLE
105
27
330
A
100
AcDbSymbolTableRecord
100
AcDbDimStyleTableRecord
  2
ISO-25
 70
     0
 41
2.5
 42
0.625
 43
3.75
 44
1.25
 73
     0
 74
     0
 77
     1
 78
     8
140
2.5
141
2.5
143
0.0393700787
147
0.625
171
     3
172
     1
178
     0
271
     2
272
     2
274
     3
278
    44
283
     0
284
     8
340
11
  0
ENDTAB
  0
TABLE
  2
BLOCK_RECORD
  5
1
330
0
100
AcDbSymbolTable
 70
     5
  0
BLOCK_RECORD
  5
1F
330
1
100
AcDbSymbolTableRecord
100
AcDbBlockTableRecord
  2
*Model_Space
340
22
  0
BLOCK_RECORD
  5
1B
330
1
100
AcDbSymbolTableRecord
100
AcDbBlockTableRecord
  2
*Paper_Space
340
1E
  0
BLOCK_RECORD
  5
23
330
1
100
AcDbSymbolTableRecord
100
AcDbBlockTableRecord
  2
*Paper_Space0
340
26
  0
BLOCK_RECORD
  5
97
330
1
100
AcDbSymbolTableRecord
100
AcDbBlockTableRecord
  2
SW_CENTERMARKSYMBOL_0
340
0
102
{BLKREFS
331
A2
102
}
  0
BLOCK_RECORD
  5
AC
330
1
100
AcDbSymbolTableRecord
100
AcDbBlockTableRecord
  2
SW_CENTERMARKSYMBOL_1
340
0
102
{BLKREFS
331
B7
102
}
  0
BLOCK_RECORD
  5
BF
330
1
100
AcDbSymbolTableRecord
100
AcDbBlockTableRecord
  2
SW_CENTERMARKSYMBOL_2
340
0
102
{BLKREFS
331
CA
102
}
  0
BLOCK_RECORD
  5
D2
330
1
100
AcDbSymbolTableRecord
100
AcDbBlockTableRecord
  2
SW_CENTERMARKSYMBOL_3
340
0
102
{BLKREFS
331
DD
102
}
  0
ENDTAB
  0
ENDSEC
  0
SECTION
  2
BLOCKS
  0
BLOCK
  5
20
330
1F
100
AcDbEntity
  8
0
100
AcDbBlockBegin
  2
*Model_Space
 70
     0
 10
0.0
 20
0.0
 30
0.0
  3
*Model_Space
  1

  0
ENDBLK
  5
21
330
1F
100
AcDbEntity
  8
0
100
AcDbBlockEnd
  0
BLOCK
  5
1C
330
1B
100
AcDbEntity
 67
     1
  8
0
100
AcDbBlockBegin
  2
*Paper_Space
 70
     0
 10
0.0
 20
0.0
 30
0.0
  3
*Paper_Space
  1

  0
ENDBLK
  5
1D
330
1B
100
AcDbEntity
 67
     1
  8
0
100
AcDbBlockEnd
  0
BLOCK
  5
24
330
23
100
AcDbEntity
  8
0
100
AcDbBlockBegin
  2
*Paper_Space0
 70
     0
 10
0.0
 20
0.0
 30
0.0
  3
*Paper_Space0
  1

  0
ENDBLK
  5
25
330
23
100
AcDbEntity
  8
0
100
AcDbBlockEnd
  0
BLOCK
  5
98
330
97
100
AcDbEntity
  8
0
100
AcDbBlockBegin
  2
SW_CENTERMARKSYMBOL_0
 70
     0
 10
0.0
 20
0.0
 30
0.0
  3
SW_CENTERMARKSYMBOL_0
  1

  0
LINE
  5
9A
330
97
100
AcDbEntity
  8
FORMAT
 62
     0
100
AcDbLine
 10
0.0
 20
0.0
 30
0.0
 11
0.0
 21
2.5
 31
0.0
  0
LINE
  5
9B
330
97
100
AcDbEntity
  8
FORMAT
 62
     0
100
AcDbLine
 10
0.0
 20
0.0
 30
0.0
 11
-2.5
 21
0.0
 31
0.0
  0
LINE
  5
9C
330
97
100
AcDbEntity
  8
FORMAT
 62
     0
100
AcDbLine
 10
0.0
 20
0.0
 30
0.0
 11
0.0
 21
-2.5
 31
0.0
  0
LINE
  5
9D
330
97
100
AcDbEntity
  8
FORMAT
 62
     0
100
AcDbLine
 10
0.0
 20
0.0
 30
0.0
 11
2.5
 21
0.0
 31
0.0
  0
LINE
  5
9E
330
97
100
AcDbEntity
  8
FORMAT
 62
     0
100
AcDbLine
 10
0.0
 20
5.0
 30
0.0
 11
0.0
 21
57.5
 31
0.0
  0
LINE
  5
9F
330
97
100
AcDbEntity
  8
FORMAT
 62
     0
100
AcDbLine
 10
-5.0
 20
0.0
 30
0.0
 11
-57.5
 21
0.0
 31
0.0
  0
LINE
  5
A0
330
97
100
AcDbEntity
  8
FORMAT
 62
     0
100
AcDbLine
 10
0.0
 20
-5.0
 30
0.0
 11
0.0
 21
-57.5
 31
0.0
  0
LINE
  5
A1
330
97
100
AcDbEntity
  8
FORMAT
 62
     0
100
AcDbLine
 10
5.0
 20
0.0
 30
0.0
 11
57.5
 21
0.0
 31
0.0
  0
ENDBLK
  5
99
330
97
100
AcDbEntity
  8
0
100
AcDbBlockEnd
  0
BLOCK
  5
AD
330
AC
100
AcDbEntity
  8
0
100
AcDbBlockBegin
  2
SW_CENTERMARKSYMBOL_1
 70
     0
 10
0.0
 20
0.0
 30
0.0
  3
SW_CENTERMARKSYMBOL_1
  1

  0
LINE
  5
AF
330
AC
100
AcDbEntity
  8
FORMAT
 62
     0
100
AcDbLine
 10
0.0
 20
0.0
 30
0.0
 11
0.0
 21
2.5
 31
0.0
  0
LINE
  5
B0
330
AC
100
AcDbEntity
  8
FORMAT
 62
     0
100
AcDbLine
 10
0.0
 20
0.0
 30
0.0
 11
-2.5
 21
0.0
 31
0.0
  0
LINE
  5
B1
330
AC
100
AcDbEntity
  8
FORMAT
 62
     0
100
AcDbLine
 10
0.0
 20
0.0
 30
0.0
 11
0.0
 21
-2.5
 31
0.0
  0
LINE
  5
B2
330
AC
100
AcDbEntity
  8
FORMAT
 62
     0
100
AcDbLine
 10
0.0
 20
0.0
 30
0.0
 11
2.5
 21
0.0
 31
0.0
  0
LINE
  5
B3
330
AC
100
AcDbEntity
  8
FORMAT
 62
     0
100
AcDbLine
 10
0.0
 20
5.0
 30
0.0
 11
0.0
 21
57.5
 31
0.0
  0
LINE
  5
B4
330
AC
100
AcDbEntity
  8
FORMAT
 62
     0
100
AcDbLine
 10
-5.0
 20
0.0
 30
0.0
 11
-57.5
 21
0.0
 31
0.0
  0
LINE
  5
B5
330
AC
100
AcDbEntity
  8
FORMAT
 62
     0
100
AcDbLine
 10
0.0
 20
-5.0
 30
0.0
 11
0.0
 21
-57.5
 31
0.0
  0
LINE
  5
B6
330
AC
100
AcDbEntity
  8
FORMAT
 62
     0
100
AcDbLine
 10
5.0
 20
0.0
 30
0.0
 11
57.5
 21
0.0
 31
0.0
  0
ENDBLK
  5
AE
330
AC
100
AcDbEntity
  8
0
100
AcDbBlockEnd
  0
BLOCK
  5
C0
330
BF
100
AcDbEntity
  8
0
100
AcDbBlockBegin
  2
SW_CENTERMARKSYMBOL_2
 70
     0
 10
0.0
 20
0.0
 30
0.0
  3
SW_CENTERMARKSYMBOL_2
  1

  0
LINE
  5
C2
330
BF
100
AcDbEntity
  8
FORMAT
 62
     0
100
AcDbLine
 10
0.0
 20
0.0
 30
0.0
 11
0.0
 21
2.5
 31
0.0
  0
LINE
  5
C3
330
BF
100
AcDbEntity
  8
FORMAT
 62
     0
100
AcDbLine
 10
0.0
 20
0.0
 30
0.0
 11
-2.5
 21
0.0
 31
0.0
  0
LINE
  5
C4
330
BF
100
AcDbEntity
  8
FORMAT
 62
     0
100
AcDbLine
 10
0.0
 20
0.0
 30
0.0
 11
0.0
 21
-2.5
 31
0.0
  0
LINE
  5
C5
330
BF
100
AcDbEntity
  8
FORMAT
 62
     0
100
AcDbLine
 10
0.0
 20
0.0
 30
0.0
 11
2.5
 21
0.0
 31
0.0
  0
LINE
  5
C6
330
BF
100
AcDbEntity
  8
FORMAT
 62
     0
100
AcDbLine
 10
0.0
 20
5.0
 30
0.0
 11
0.0
 21
57.5
 31
0.0
  0
LINE
  5
C7
330
BF
100
AcDbEntity
  8
FORMAT
 62
     0
100
AcDbLine
 10
-5.0
 20
0.0
 30
0.0
 11
-57.5
 21
0.0
 31
0.0
  0
LINE
  5
C8
330
BF
100
AcDbEntity
  8
FORMAT
 62
     0
100
AcDbLine
 10
0.0
 20
-5.0
 30
0.0
 11
0.0
 21
-57.5
 31
0.0
  0
LINE
  5
C9
330
BF
100
AcDbEntity
  8
FORMAT
 62
     0
100
AcDbLine
 10
5.0
 20
0.0
 30
0.0
 11
57.5
 21
0.0
 31
0.0
  0
ENDBLK
  5
C1
330
BF
100
AcDbEntity
  8
0
100
AcDbBlockEnd
  0
BLOCK
  5
D3
330
D2
100
AcDbEntity
  8
0
100
AcDbBlockBegin
  2
SW_CENTERMARKSYMBOL_3
 70
     0
 10
0.0
 20
0.0
 30
0.0
  3
SW_CENTERMARKSYMBOL_3
  1

  0
LINE
  5
D5
330
D2
100
AcDbEntity
  8
FORMAT
 62
     0
100
AcDbLine
 10
0.0
 20
0.0
 30
0.0
 11
0.0
 21
2.5
 31
0.0
  0
LINE
  5
D6
330
D2
100
AcDbEntity
  8
FORMAT
 62
     0
100
AcDbLine
 10
0.0
 20
0.0
 30
0.0
 11
-2.5
 21
0.0
 31
0.0
  0
LINE
  5
D7
330
D2
100
AcDbEntity
  8
FORMAT
 62
     0
100
AcDbLine
 10
0.0
 20
0.0
 30
0.0
 11
0.0
 21
-2.5
 31
0.0
  0
LINE
  5
D8
330
D2
100
AcDbEntity
  8
FORMAT
 62
     0
100
AcDbLine
 10
0.0
 20
0.0
 30
0.0
 11
2.5
 21
0.0
 31
0.0
  0
LINE
  5
D9
330
D2
100
AcDbEntity
  8
FORMAT
 62
     0
100
AcDbLine
 10
0.0
 20
5.0
 30
0.0
 11
0.0
 21
57.5
 31
0.0
  0
LINE
  5
DA
330
D2
100
AcDbEntity
  8
FORMAT
 62
     0
100
AcDbLine
 10
-5.0
 20
0.0
 30
0.0
 11
-57.5
 21
0.0
 31
0.0
  0
LINE
  5
DB
330
D2
100
AcDbEntity
  8
FORMAT
 62
     0
100
AcDbLine
 10
0.0
 20
-5.0
 30
0.0
 11
0.0
 21
-57.5
 31
0.0
  0
LINE
  5
DC
330
D2
100
AcDbEntity
  8
FORMAT
 62
     0
100
AcDbLine
 10
5.0
 20
0.0
 30
0.0
 11
57.5
 21
0.0
 31
0.0
  0
ENDBLK
  5
D4
330
D2
100
AcDbEntity
  8
0
100
AcDbBlockEnd
  0
ENDSEC
  0
SECTION
  2
ENTITIES
  0
LINE
  5
83
330
1F
100
AcDbEntity
  8
0
  6
Continuous
 62
     7
370
    25
100
AcDbLine
 10
30.5105439033
 20
107.3630940269
 30
0.0
 11
30.5105439033
 21
1.3630940269
 31
0.0
  0
LINE
  5
84
330
1F
100
AcDbEntity
  8
0
  6
Continuous
 62
     7
370
    25
100
AcDbLine
 10
140.5105439033
 20
1.3630940269
 30
0.0
 11
140.5105439033
 21
107.3630940269
 31
0.0
  0
ARC
  5
85
330
1F
100
AcDbEntity
  8
0
  6
Continuous
 62
     7
370
    25
100
AcDbCircle
 10
140.5105439033
 20
107.3630940269
 30
0.0
 40
110.0
100
AcDbArc
 50
90.0
 51
180.0
  0
LINE
  5
86
330
1F
100
AcDbEntity
  8
0
  6
Continuous
 62
     7
370
    25
100
AcDbLine
 10
246.5105439033
 20
217.3630940269
 30
0.0
 11
140.5105439033
 21
217.3630940269
 31
0.0
  0
LINE
  5
87
330
1F
100
AcDbEntity
  8
0
  6
Continuous
 62
     7
370
    25
100
AcDbLine
 10
140.5105439033
 20
107.3630940269
 30
0.0
 11
246.5105439033
 21
107.3630940269
 31
0.0
  0
LINE
  5
88
330
1F
100
AcDbEntity
  8
0
  6
Continuous
 62
     7
370
    25
100
AcDbLine
 10
85.5105439033
 20
1.3630940269
 30
0.0
 11
140.5105439033
 21
1.3630940269
 31
0.0
  0
LINE
  5
89
330
1F
100
AcDbEntity
  8
0
  6
Continuous
 62
     7
370
    25
100
AcDbLine
 10
30.5105439033
 20
1.3630940269
 30
0.0
 11
85.5105439033
 21
1.3630940269
 31
0.0
  0
LINE
  5
8A
330
1F
100
AcDbEntity
  8
0
  6
Continuous
 62
     7
370
    25
100
AcDbLine
 10
246.5105439033
 20
162.3630940269
 30
0.0
 11
246.5105439033
 21
107.3630940269
 31
0.0
  0
LINE
  5
8B
330
1F
100
AcDbEntity
  8
0
  6
Continuous
 62
     7
370
    25
100
AcDbLine
 10
246.5105439033
 20
217.3630940269
 30
0.0
 11
246.5105439033
 21
162.3630940269
 31
0.0
  0
LINE
  5
8C
330
1F
100
AcDbEntity
  8
0
  6
Continuous
 62
     1
370
    25
100
AcDbLine
 10
30.5105439033
 20
107.3630940269
 30
0.0
 11
140.5105439033
 21
107.3630940269
 31
0.0
  0
LINE
  5
8D
330
1F
100
AcDbEntity
  8
0
  6
Continuous
 62
     1
370
    25
100
AcDbLine
 10
140.5105439033
 20
217.3630940269
 30
0.0
 11
140.5105439033
 21
107.3630940269
 31
0.0
  0
LINE
  5
8E
330
1F
100
AcDbEntity
  8
0
  6
Continuous
 62
     7
370
    25
100
AcDbLine
 10
-168.6202468231
 20
162.3630940269
 30
0.0
 11
-168.6202468231
 21
107.3630940269
 31
0.0
  0
LINE
  5
8F
330
1F
100
AcDbEntity
  8
0
  6
Continuous
 62
     7
370
    25
100
AcDbLine
 10
-58.6202468231
 20
107.3630940269
 30
0.0
 11
-58.6202468231
 21
162.3630940269
 31
0.0
  0
LINE
  5
90
330
1F
100
AcDbEntity
  8
0
  6
Continuous
 62
     7
370
    25
100
AcDbLine
 10
-168.6202468231
 20
107.3630940269
 30
0.0
 11
-168.6202468231
 21
1.3630940269
 31
0.0
  0
LINE
  5
91
330
1F
100
AcDbEntity
  8
0
  6
Continuous
 62
     7
370
    25
100
AcDbLine
 10
-58.6202468231
 20
1.3630940269
 30
0.0
 11
-58.6202468231
 21
107.3630940269
 31
0.0
  0
CIRCLE
  5
92
330
1F
100
AcDbEntity
  8
0
  6
Continuous
 62
     7
370
    25
100
AcDbCircle
 10
-113.6202468231
 20
162.3630940269
 30
0.0
 40
55.0
  0
CIRCLE
  5
93
330
1F
100
AcDbEntity
  8
0
  6
Continuous
 62
     7
370
    25
100
AcDbCircle
 10
-113.6202468231
 20
162.3630940269
 30
0.0
 40
48.40000000000001
  0
LINE
  5
94
330
1F
100
AcDbEntity
  8
0
  6
Continuous
 62
     7
370
    25
100
AcDbLine
 10
-168.6202468231
 20
1.3630940269
 30
0.0
 11
-58.6202468231
 21
1.3630940269
 31
0.0
  0
LINE
  5
95
330
1F
100
AcDbEntity
  8
0
  6
Continuous
 62
     1
370
    25
100
AcDbLine
 10
-113.6202468231
 20
107.3630940269
 30
0.0
 11
-58.6202468231
 21
107.3630940269
 31
0.0
  0
LINE
  5
96
330
1F
100
AcDbEntity
  8
0
  6
Continuous
 62
     1
370
    25
100
AcDbLine
 10
-168.6202468231
 20
107.3630940269
 30
0.0
 11
-113.6202468231
 21
107.3630940269
 31
0.0
  0
INSERT
  5
A2
330
1F
100
AcDbEntity
  8
FORMAT
 62
     7
100
AcDbBlockReference
  2
SW_CENTERMARKSYMBOL_0
 10
-113.6202468231
 20
162.3630940269
 30
0.0
  0
LINE
  5
A3
330
1F
100
AcDbEntity
  8
0
  6
Continuous
 62
     7
370
    25
100
AcDbLine
 10
246.5105439033
 20
373.6939985018
 30
0.0
 11
140.5105439033
 21
373.6939985018
 31
0.0
  0
LINE
  5
A4
330
1F
100
AcDbEntity
  8
0
  6
Continuous
 62
     7
370
    25
100
AcDbLine
 10
140.5105439033
 20
263.6939985018
 30
0.0
 11
246.5105439033
 21
263.6939985018
 31
0.0
  0
LINE
  5
A5
330
1F
100
AcDbEntity
  8
0
  6
Continuous
 62
     7
370
    25
100
AcDbLine
 10
140.5105439033
 20
373.6939985018
 30
0.0
 11
85.5105439033
 21
373.6939985018
 31
0.0
  0
LINE
  5
A6
330
1F
100
AcDbEntity
  8
0
  6
Continuous
 62
     7
370
    25
100
AcDbLine
 10
85.5105439033
 20
263.6939985018
 30
0.0
 11
140.5105439033
 21
263.6939985018
 31
0.0
  0
CIRCLE
  5
A7
330
1F
100
AcDbEntity
  8
0
  6
Continuous
 62
     7
370
    25
100
AcDbCircle
 10
85.5105439033
 20
318.6939985018
 30
0.0
 40
48.39999999999998
  0
CIRCLE
  5
A8
330
1F
100
AcDbEntity
  8
0
  6
Continuous
 62
     7
370
    25
100
AcDbCircle
 10
85.5105439033
 20
318.6939985018
 30
0.0
 40
55.00000000000006
  0
LINE
  5
A9
330
1F
100
AcDbEntity
  8
0
  6
Continuous
 62
     7
370
    25
100
AcDbLine
 10
246.5105439033
 20
373.6939985018
 30
0.0
 11
246.5105439033
 21
263.6939985018
 31
0.0
  0
LINE
  5
AA
330
1F
100
AcDbEntity
  8
0
  6
Continuous
 62
     1
370
    25
100
AcDbLine
 10
140.5105439033
 20
318.6939985018
 30
0.0
 11
140.5105439033
 21
263.6939985018
 31
0.0
  0
LINE
  5
AB
330
1F
100
AcDbEntity
  8
0
  6
Continuous
 62
     1
370
    25
100
AcDbLine
 10
140.5105439033
 20
373.6939985018
 30
0.0
 11
140.5105439033
 21
318.6939985018
 31
0.0
  0
INSERT
  5
B7
330
1F
100
AcDbEntity
  8
FORMAT
 62
     7
100
AcDbBlockReference
  2
SW_CENTERMARKSYMBOL_1
 10
85.5105439033
 20
318.6939985018
 30
0.0
  0
LINE
  5
B8
330
1F
100
AcDbEntity
  8
0
  6
Continuous
 62
     7
370
    25
100
AcDbLine
 10
365.6860852624
 20
107.3630940269
 30
0.0
 11
365.6860852624
 21
1.3630940269
 31
0.0
  0
LINE
  5
B9
330
1F
100
AcDbEntity
  8
0
  6
Continuous
 62
     7
370
    25
100
AcDbLine
 10
475.6860852624
 20
1.3630940269
 30
0.0
 11
475.6860852624
 21
107.3630940269
 31
0.0
  0
LINE
  5
BA
330
1F
100
AcDbEntity
  8
0
  6
Continuous
 62
     7
370
    25
100
AcDbLine
 10
475.6860852624
 20
107.3630940269
 30
0.0
 11
475.6860852624
 21
162.3630940269
 31
0.0
  0
LINE
  5
BB
330
1F
100
AcDbEntity
  8
0
  6
Continuous
 62
     7
370
    25
100
AcDbLine
 10
365.6860852624
 20
162.3630940269
 30
0.0
 11
365.6860852624
 21
107.3630940269
 31
0.0
  0
LINE
  5
BC
330
1F
100
AcDbEntity
  8
0
  6
Continuous
 62
     7
370
    25
100
AcDbLine
 10
365.6860852624
 20
1.3630940269
 30
0.0
 11
475.6860852624
 21
1.3630940269
 31
0.0
  0
ARC
  5
BD
330
1F
100
AcDbEntity
  8
0
  6
Continuous
 62
     7
370
    25
100
AcDbCircle
 10
420.6860852624
 20
162.3630940269
 30
0.0
 40
55.0
100
AcDbArc
 50
0.0
 51
180.0
  0
LINE
  5
BE
330
1F
100
AcDbEntity
  8
0
  6
Continuous
 62
     1
370
    25
100
AcDbLine
 10
365.6860852624
 20
107.3630940269
 30
0.0
 11
475.6860852624
 21
107.3630940269
 31
0.0
  0
INSERT
  5
CA
330
1F
100
AcDbEntity
  8
FORMAT
 62
     7
100
AcDbBlockReference
  2
SW_CENTERMARKSYMBOL_2
 10
420.6860852624
 20
162.3630940269
 30
0.0
  0
LINE
  5
CB
330
1F
100
AcDbEntity
  8
0
  6
Continuous
 62
     7
370
    25
100
AcDbLine
 10
85.5105439033
 20
-207.6185852836
 30
0.0
 11
140.5105439033
 21
-207.6185852836
 31
0.0
  0
LINE
  5
CC
330
1F
100
AcDbEntity
  8
0
  6
Continuous
 62
     7
370
    25
100
AcDbLine
 10
140.5105439033
 20
-97.6185852836
 30
0.0
 11
85.5105439033
 21
-97.6185852836
 31
0.0
  0
LINE
  5
CD
330
1F
100
AcDbEntity
  8
0
  6
Continuous
 62
     7
370
    25
100
AcDbLine
 10
246.5105439033
 20
-97.6185852836
 30
0.0
 11
140.5105439033
 21
-97.6185852836
 31
0.0
  0
LINE
  5
CE
330
1F
100
AcDbEntity
  8
0
  6
Continuous
 62
     7
370
    25
100
AcDbLine
 10
140.5105439033
 20
-207.6185852836
 30
0.0
 11
246.5105439033
 21
-207.6185852836
 31
0.0
  0
ARC
  5
CF
330
1F
100
AcDbEntity
  8
0
  6
Continuous
 62
     7
370
    25
100
AcDbCircle
 10
85.5105439033
 20
-152.6185852836
 30
0.0
 40
55.0
100
AcDbArc
 50
90.0
 51
270.0
  0
LINE
  5
D0
330
1F
100
AcDbEntity
  8
0
  6
Continuous
 62
     7
370
    25
100
AcDbLine
 10
246.5105439033
 20
-97.6185852836
 30
0.0
 11
246.5105439033
 21
-207.6185852836
 31
0.0
  0
LINE
  5
D1
330
1F
100
AcDbEntity
  8
0
  6
Continuous
 62
     1
370
    25
100
AcDbLine
 10
140.5105439033
 20
-97.6185852836
 30
0.0
 11
140.5105439033
 21
-207.6185852836
 31
0.0
  0
INSERT
  5
DD
330
1F
100
AcDbEntity
  8
FORMAT
 62
     7
100
AcDbBlockReference
  2
SW_CENTERMARKSYMBOL_3
 10
85.5105439033
 20
-152.6185852836
 30
0.0
  0
LINE
  5
DE
330
1F
100
AcDbEntity
  8
0
  6
Continuous
 62
     7
370
    25
100
AcDbLine
 10
457.6628607068
 20
-39.1078380697
 30
0.0
 11
382.7095419011
 21
-82.3774679963
 31
0.0
  0
LINE
  5
DF
330
1F
100
AcDbEntity
  8
0
  6
Continuous
 62
     7
370
    25
100
AcDbLine
 10
437.7050721961
 20
-177.6428428581
 30
0.0
 11
512.6583910018
 21
-134.3732129315
 31
0.0
  0
LINE
  5
E0
330
1F
100
AcDbEntity
  8
0
  6
Continuous
 62
     7
370
    25
100
AcDbLine
 10
316.3164340833
 20
-197.371123156
 30
0.0
 11
316.3164340833
 21
-283.9244492159
 31
0.0
  0
LINE
  5
E1
330
1F
100
AcDbEntity
  8
0
  6
Continuous
 62
     7
370
    25
100
AcDbLine
 10
426.3164340833
 20
-283.9244492159
 30
0.0
 11
426.3164340833
 21
-197.371123156
 31
0.0
  0
SPLINE
  5
E2
330
1F
100
AcDbEntity
  8
0
  6
Continuous
 62
     7
370
    25
100
AcDbSpline
210
0.0
220
0.0
230
1.0
 70
     8
 71
     3
 72
    37
 73
    33
 74
     0
 42
0.00000001
 43
0.00000001
 40
0.0
 40
0.0
 40
0.0
 40
0.0
 40
0.0217989438414643
 40
0.0553014527900783
 40
0.0888905541978423
 40
0.1226458379899758
 40
0.1565018994689916
 40
0.1903895533306236
 40
0.2242579595439843
 40
0.2580746989039281
 40
0.2918195460317243
 40
0.325483451294623
 40
0.3590669047827457
 40
0.3925781231933775
 40
0.4260313202409076
 40
0.459445188799698
 40
0.4928416269752596
 40
0.5262446808702091
 40
0.5596772260605481
 40
0.5931589516226597
 40
0.6267154825889666
 40
0.6603714414929044
 40
0.694149429272387
 40
0.7280687750559501
 40
0.7621439814062773
 40
0.7963828273527187
 40
0.830784161989259
 40
0.8653355425766396
 40
0.900011046944036
 40
0.9347697936445293
 40
0.9695342772190751
 40
1.0
 40
1.0
 40
1.0
 40
1.0
 10
382.7095419010745
 20
-82.37746799625603
 30
0.0
 10
381.8700450098078
 20
-82.87123656886169
 30
0.0
 10
379.7403364313811
 20
-84.12387154080179
 30
0.0
 10
376.3887243817729
 20
-86.28640704503502
 30
0.0
 10
372.6657872540998
 20
-88.89155554692039
 30
0.0
 10
369.0179180885077
 20
-91.6651919893676
 30
0.0
 10
365.4488971645309
 20
-94.59795390840092
 30
0.0
 10
361.9688483203301
 20
-97.68024169100394
 30
0.0
 10
358.5858742492519
 20
-100.9012316897023
 30
0.0
 10
355.3063648573734
 20
-104.251153416718
 30
0.0
 10
352.1352423526661
 20
-107.7209792191055
 30
0.0
 10
349.076435668905
 20
-111.3024744160294
 30
0.0
 10
346.1331167630418
 20
-114.9882022047896
 30
0.0
 10
343.3079501879117
 20
-118.7714947687626
 30
0.0
 10
340.6033104950064
 20
-122.6463763053997
 30
0.0
 10
338.0214639586294
 20
-126.6074722787457
 30
0.0
 10
335.5647138315997
 20
-130.6499149613879
 30
0.0
 10
333.2355714654936
 20
-134.7691524745813
 30
0.0
 10
331.0369099719323
 20
-138.9606995697146
 30
0.0
 10
328.9718636545369
 20
-143.220297275291
 30
0.0
 10
327.0438441536024
 20
-147.5439412819224
 30
0.0
 10
325.2565571524958
 20
-151.9279529107834
 30
0.0
 10
323.6141893677908
 20
-156.3685901394866
 30
0.0
 10
322.1214557193118
 20
-160.8618759479643
 30
0.0
 10
320.7836162296902
 20
-165.403382750615
 30
0.0
 10
319.6065100632055
 20
-169.9879627317393
 30
0.0
 10
318.5963632865552
 20
-174.6094498948084
 30
0.0
 10
317.7601961281032
 20
-179.2602785193985
 30
0.0
 10
317.1036271854715
 20
-183.9313529573423
 30
0.0
 10
316.6380984729464
 20
-188.6101820833637
 30
0.0
 10
316.3639762673462
 20
-193.0944008011021
 30
0.0
 10
316.3315695965139
 20
-196.0095873116971
 30
0.0
 10
316.3164340833063
 20
-197.3711231560343
 30
0.0
  0
SPLINE
  5
E3
330
1F
100
AcDbEntity
  8
0
  6
Continuous
 62
     7
370
    25
100
AcDbSpline
210
0.0
220
0.0
230
1.0
 70
     8
 71
     3
 72
    32
 73
    28
 74
     0
 42
0.00000001
 43
0.00000001
 40
0.0
 40
0.0
 40
0.0
 40
0.0
 40
0.0235036439530015
 40
0.0658685614726018
 40
0.1069101182029427
 40
0.1470219145108551
 40
0.1865531734331977
 40
0.225801240307523
 40
0.265005839110129
 40
0.3043455768560528
 40
0.3438976435388804
 40
0.383735723483659
 40
0.4238826816678156
 40
0.464315883179413
 40
0.5049783266900643
 40
0.5457917119783087
 40
0.5866520487141811
 40
0.6274734425137104
 40
0.6682101045146454
 40
0.7088591723249612
 40
0.7494730701391596
 40
0.7901690363198234
 40
0.8311068054639249
 40
0.8724900223849452
 40
0.9146184211196439
 40
0.9578531146657996
 40
1.0
 40
1.0
 40
1.0
 40
1.0
 10
426.3166688315869
 20
-197.4011350701073
 30
0.0
 10
426.3165034146764
 20
-197.4054356398606
 30
0.0
 10
426.3160398366048
 20
-197.4174879132752
 30
0.0
 10
426.3278125887682
 20
-197.2348368443334
 30
0.0
 10
426.3709106696971
 20
-196.8717932274101
 30
0.0
 10
426.4578032447126
 20
-196.3320284522557
 30
0.0
 10
426.5996925484933
 20
-195.6375635536951
 30
0.0
 10
426.8065603734654
 20
-194.7981452589123
 30
0.0
 10
427.0863886772498
 20
-193.8288208457061
 30
0.0
 10
427.444894009469
 20
-192.7462634017602
 30
0.0
 10
427.8851641535976
 20
-191.5698239074388
 30
0.0
 10
428.407362808766
 20
-190.3210390704554
 30
0.0
 10
429.0087186048754
 20
-189.0229436484466
 30
0.0
 10
429.6831484974961
 20
-187.7001404395886
 30
0.0
 10
430.4211739512327
 20
-186.3781911467559
 30
0.0
 10
431.2099073520831
 20
-185.0829841021617
 30
0.0
 10
432.0333831939608
 20
-183.8396571078333
 30
0.0
 10
432.8731763572811
 20
-182.671403302809
 30
0.0
 10
433.7092405006248
 20
-181.598369609529
 30
0.0
 10
434.5206032832431
 20
-180.6370651203428
 30
0.0
 10
435.2859355926387
 20
-179.8000660251918
 30
0.0
 10
435.9840951893562
 20
-179.0959276599635
 30
0.0
 10
436.5940281234032
 20
-178.5295201817296
 30
0.0
 10
437.0971835758762
 20
-178.1007433617946
 30
0.0
 10
437.470991818089
 20
-177.8090758932154
 30
0.0
 10
437.7099668208602
 20
-177.6411294902742
 30
0.0
 10
437.7348620288248
 20
-177.6257945328171
 30
0.0
 10
437.7471510434953
 20
-177.6182247419789
 30
0.0
  0
LWPOLYLINE
  5
E4
330
1F
100
AcDbEntity
  8
0
  6
Continuous
 62
     7
370
    25
100
AcDbPolyline
 90
       99
 70
   128
 43
0.0
 10
446.2697528891
 20
-64.2893024255
 10
446.3496583586
 20
-67.2128080904
 10
446.5890464185
 20
-70.2165573349
 10
446.9869333719
 20
-73.2882071089
 10
447.5416842159
 20
-76.4151353447
 10
448.2510193604
 20
-79.5844928235
 10
449.112023995
 20
-82.7832559754
 10
450.1211600671
 20
-85.9982803967
 10
451.27428082
 20
-89.2163548624
 10
452.5666478333
 20
-92.4242556141
 10
453.9929504936
 20
-95.6088006996
 10
455.5473278175
 20
-98.7569041402
 10
457.223392535
 20
-101.8556297033
 10
459.0142573368
 20
-104.8922440611
 10
460.9125631751
 20
-107.8542691139
 10
462.9105095042
 20
-110.7295332652
 10
464.999886334
 20
-113.506221438
 10
467.172107967
 20
-116.172923625
 10
469.4182482785
 20
-118.7186817748
 10
471.7290773962
 20
-121.1330348213
 10
474.0950996276
 20
-123.4060616697
 10
476.5065924797
 20
-125.5284219653
 10
478.9536466113
 20
-127.4913944744
 10
481.426206552
 20
-129.2869129218
 10
483.9141120227
 20
-130.9075991371
 10
486.407139686
 20
-132.346793373
 10
488.8950451567
 20
-133.5985816718
 10
491.3676050974
 20
-134.6578201667
 10
493.8146592289
 20
-135.5201562196
 10
496.2261520811
 20
-136.1820463067
 10
498.5921743125
 20
-136.6407705796
 10
500.9030034302
 20
-136.8944440419
 10
503.1491437417
 20
-136.9420242949
 10
505.3213653746
 20
-136.7833158213
 10
507.4107422045
 20
-136.418970788
 10
509.4086885336
 20
-135.8504863671
 10
511.3069943719
 20
-135.0801985829
 10
513.0978591737
 20
-134.1112727132
 10
514.7739238912
 20
-132.9476902821
 10
516.328301215
 20
-131.5942326996
 10
517.7546038754
 20
-130.0564616132
 10
519.0469708887
 20
-128.340696054
 10
520.2000916416
 20
-126.4539864708
 10
521.2092277137
 20
-124.4040857579
 10
522.0702323483
 20
-122.1994173972
 10
522.7795674927
 20
-119.8490408437
 10
523.3343183368
 20
-117.362614299
 10
523.7322052902
 20
-114.7503550229
 10
523.9715933501
 20
-112.0229973493
 10
524.0514988196
 20
-109.1917485757
 10
523.9715933501
 20
-106.2682429108
 10
523.7322052902
 20
-103.2644936663
 10
523.3343183368
 20
-100.1928438923
 10
522.7795674927
 20
-97.0659156565
 10
522.0702323483
 20
-93.8965581777
 10
521.2092277137
 20
-90.6977950257
 10
520.2000916416
 20
-87.4827706044
 10
519.0469708887
 20
-84.2646961388
 10
517.7546038754
 20
-81.0567953871
 10
516.328301215
 20
-77.8722503015
 10
514.7739238912
 20
-74.724146861
 10
513.0978591737
 20
-71.6254212979
 10
511.3069943719
 20
-68.58880694
 10
509.4086885336
 20
-65.6267818873
 10
507.4107422045
 20
-62.751517736
 10
505.3213653746
 20
-59.9748295632
 10
503.1491437417
 20
-57.3081273762
 10
500.9030034302
 20
-54.7623692263
 10
498.5921743125
 20
-52.3480161799
 10
496.2261520811
 20
-50.0749893315
 10
493.8146592289
 20
-47.9526290359
 10
491.3676050974
 20
-45.9896565268
 10
488.8950451567
 20
-44.1941380794
 10
486.407139686
 20
-42.5734518641
 10
483.9141120227
 20
-41.1342576281
 10
481.426206552
 20
-39.8824693294
 10
478.9536466113
 20
-38.8232308345
 10
476.5065924797
 20
-37.9608947816
 10
474.0950996276
 20
-37.2990046945
 10
471.7290773962
 20
-36.8402804216
 10
469.4182482785
 20
-36.5866069593
 10
467.172107967
 20
-36.5390267062
 10
464.999886334
 20
-36.6977351799
 10
462.9105095042
 20
-37.0620802132
 10
460.9125631751
 20
-37.6305646341
 10
459.0142573368
 20
-38.4008524183
 10
457.223392535
 20
-39.369778288
 10
455.5473278175
 20
-40.533360719
 10
453.9929504936
 20
-41.8868183015
 10
452.5666478333
 20
-43.424589388
 10
451.27428082
 20
-45.1403549472
 10
450.1211600671
 20
-47.0270645304
 10
449.112023995
 20
-49.0769652432
 10
448.2510193604
 20
-51.281633604
 10
447.5416842159
 20
-53.6320101575
 10
446.9869333719
 20
-56.1184367022
 10
446.5890464185
 20
-58.7306959783
 10
446.3496583586
 20
-61.4580536519
 10
446.2697528891
 20
-64.2893024255
  0
LWPOLYLINE
  5
E5
330
1F
100
AcDbEntity
  8
0
  6
Continuous
 62
     7
370
    25
100
AcDbPolyline
 90
       93
 70
   128
 43
0.0
 10
450.9366576449
 20
-66.9834491945
 10
451.016441614
 20
-64.3325280638
 10
451.2554215317
 20
-61.786083361
 10
451.6524831631
 20
-59.355987787
 10
452.2057752238
 20
-57.0535715691
 10
452.9127180108
 20
-54.8895696344
 10
453.7700154303
 20
-52.8740715589
 10
454.7736703661
 20
-51.0164745252
 10
455.9190033156
 20
-49.325439508
 10
457.2006742079
 20
-47.8088508931
 10
458.6127073016
 20
-46.473779717
 10
460.1485190466
 20
-45.3264506975
 10
461.8009487796
 20
-44.3722132123
 10
463.5622921104
 20
-43.615516357
 10
465.4243368433
 20
-43.0598882016
 10
467.3784012662
 20
-42.7079193412
 10
469.4153746288
 20
-42.5612508169
 10
471.5257596208
 20
-42.6205664652
 10
473.6997166534
 20
-42.8855897292
 10
475.9271097353
 20
-43.355084948
 10
478.1975537316
 20
-44.0268631181
 10
480.5004627845
 20
-44.8977920998
 10
482.8250996688
 20
-45.9638112199
 10
485.1606258543
 20
-47.2199502053
 10
487.4961520399
 20
-48.6603523562
 10
489.8207889242
 20
-50.2783018528
 10
492.1236979771
 20
-52.0662550678
 10
494.3941419734
 20
-54.0158757377
 10
496.6215350553
 20
-56.1180738312
 10
498.7954920878
 20
-58.3630479303
 10
500.9058770799
 20
-60.7403309294
 10
502.9428504425
 20
-63.2388388378
 10
504.8969148654
 20
-65.8469224582
 10
506.7589595983
 20
-68.5524217008
 10
508.5203029291
 20
-71.3427222794
 10
510.1727326621
 20
-74.2048145245
 10
511.7085444071
 20
-77.1253540409
 10
513.1205775008
 20
-80.0907239252
 10
514.4022483931
 20
-83.087098254
 10
515.5475813426
 20
-86.1005065473
 10
516.5512362784
 20
-89.1168989043
 10
517.4085336979
 20
-92.1222115115
 10
518.1154764848
 20
-95.1024322143
 10
518.6687685455
 20
-98.0436658479
 10
519.065830177
 20
-100.9321990235
 10
519.3048100947
 20
-103.754564066
 10
519.3845940638
 20
-106.4976018067
 10
519.3048100947
 20
-109.1485229374
 10
519.065830177
 20
-111.6949676401
 10
518.6687685455
 20
-114.1250632141
 10
518.1154764848
 20
-116.4274794321
 10
517.4085336979
 20
-118.5914813668
 10
516.5512362784
 20
-120.6069794422
 10
515.5475813426
 20
-122.464576476
 10
514.4022483931
 20
-124.1556114932
 10
513.1205775008
 20
-125.672200108
 10
511.7085444071
 20
-127.0072712842
 10
510.1727326621
 20
-128.1546003037
 10
508.5203029291
 20
-129.1088377889
 10
506.7589595983
 20
-129.8655346442
 10
504.8969148654
 20
-130.4211627995
 10
502.9428504425
 20
-130.77313166
 10
500.9058770799
 20
-130.9198001842
 10
498.7954920878
 20
-130.8604845359
 10
496.6215350553
 20
-130.595461272
 10
494.3941419734
 20
-130.1259660532
 10
492.1236979771
 20
-129.4541878831
 10
489.8207889242
 20
-128.5832589014
 10
487.4961520399
 20
-127.5172397813
 10
485.1606258543
 20
-126.2611007959
 10
482.8250996688
 20
-124.820698645
 10
480.5004627845
 20
-123.2027491483
 10
478.1975537316
 20
-121.4147959334
 10
475.9271097353
 20
-119.4651752634
 10
473.6997166534
 20
-117.36297717
 10
471.5257596208
 20
-115.1180030709
 10
469.4153746288
 20
-112.7407200718
 10
467.3784012662
 20
-110.2422121634
 10
465.4243368433
 20
-107.634128543
 10
463.5622921104
 20
-104.9286293003
 10
461.8009487796
 20
-102.1383287218
 10
460.1485190466
 20
-99.2762364767
 10
458.6127073016
 20
-96.3556969603
 10
457.2006742079
 20
-93.390327076
 10
455.9190033156
 20
-90.3939527471
 10
454.7736703661
 20
-87.3805444539
 10
453.7700154303
 20
-84.3641520969
 10
452.9127180108
 20
-81.3588394897
 10
452.2057752238
 20
-78.3786187869
 10
451.6524831631
 20
-75.4373851533
 10
451.2554215317
 20
-72.5488519777
 10
451.016441614
 20
-69.7264869352
 10
450.9366576449
 20
-66.9834491945
  0
LWPOLYLINE
  5
E6
330
1F
100
AcDbEntity
  8
0
  6
Continuous
 62
     7
370
    25
100
AcDbPolyline
 90
       99
 70
   128
 43
0.0
 10
332.425561118
 20
-261.4732261408
 10
334.9972133737
 20
-260.0808997852
 10
337.7181090977
 20
-258.7865516887
 10
340.5770675459
 20
-257.5955006052
 10
343.5623406448
 20
-256.512640819
 10
346.6616612668
 20
-255.5424220334
 10
349.8622936388
 20
-254.6888310854
 10
353.1510856758
 20
-253.9553755633
 10
356.5145230258
 20
-253.3450693932
 10
359.9387846034
 20
-252.860420454
 10
363.4097993831
 20
-252.5034202723
 10
366.9133042209
 20
-252.2755358382
 10
370.4349024636
 20
-252.1777035779
 10
373.960123109
 20
-252.2103255051
 10
377.474480269
 20
-252.3732675693
 10
380.9635326963
 20
-252.6658602065
 10
384.4129431262
 20
-253.086901091
 10
387.8085371912
 20
-253.6346600753
 10
391.136361667
 20
-254.3068863004
 10
394.382741809
 20
-255.1008174444
 10
397.5343375449
 20
-256.013191074
 10
400.5781982916
 20
-257.0402580502
 10
403.5018161727
 20
-258.1777979346
 10
406.293177415
 20
-259.4211363318
 10
408.9408117164
 20
-260.7651640975
 10
411.4338393798
 20
-262.2043583335
 10
413.7620160196
 20
-263.7328050818
 10
415.9157746587
 20
-265.3442236269
 10
417.8862650409
 20
-267.0319923045
 10
419.6653899984
 20
-268.7891757109
 10
421.2458387253
 20
-270.6085532027
 10
422.6211168187
 20
-272.4826485674
 10
423.7855729659
 20
-274.4037607453
 10
424.7344221668
 20
-276.3639954742
 10
425.4637653966
 20
-278.3552977293
 10
425.9706056274
 20
-280.3694848225
 10
426.2528601441
 20
-282.3982800268
 10
426.3093691023
 20
-284.4333465878
 10
426.1399002945
 20
-286.4663219802
 10
425.7451501045
 20
-288.4888522723
 10
425.1267406454
 20
-290.4926264531
 10
424.2872130944
 20
-292.4694105848
 10
423.2300172503
 20
-294.4110816373
 10
421.9594973574
 20
-296.3096608679
 10
420.4808742547
 20
-298.1573466071
 10
418.8002239216
 20
-299.9465463181
 10
416.9244525108
 20
-301.6699077953
 10
414.8612679693
 20
-303.3203493768
 10
412.6191483652
 20
-304.8910890441
 10
410.2073070486
 20
-306.375672291
 10
407.6356547929
 20
-307.7679986466
 10
404.9147590689
 20
-309.0623467431
 10
402.0558006207
 20
-310.2533978267
 10
399.0705275218
 20
-311.3362576128
 10
395.9712068998
 20
-312.3064763984
 10
392.7705745278
 20
-313.1600673465
 10
389.4817824908
 20
-313.8935228685
 10
386.1183451408
 20
-314.5038290386
 10
382.6940835633
 20
-314.9884779778
 10
379.2230687835
 20
-315.3454781596
 10
375.7195639458
 20
-315.5733625936
 10
372.197965703
 20
-315.6711948539
 10
368.6727450577
 20
-315.6385729267
 10
365.1583878976
 20
-315.4756308626
 10
361.6693354703
 20
-315.1830382253
 10
358.2199250404
 20
-314.7619973409
 10
354.8243309754
 20
-314.2142383565
 10
351.4965064996
 20
-313.5420121315
 10
348.2501263576
 20
-312.7480809875
 10
345.0985306218
 20
-311.8357073579
 10
342.054669875
 20
-310.8086403816
 10
339.1310519939
 20
-309.6711004972
 10
336.3396907516
 20
-308.4277621001
 10
333.6920564502
 20
-307.0837343343
 10
331.1990287868
 20
-305.6445400984
 10
328.870852147
 20
-304.1160933501
 10
326.7170935079
 20
-302.5046748049
 10
324.7466031258
 20
-300.8169061273
 10
322.9674781682
 20
-299.0597227209
 10
321.3870294413
 20
-297.2403452292
 10
320.0117513479
 20
-295.3662498644
 10
318.8472952007
 20
-293.4451376866
 10
317.8984459998
 20
-291.4849029576
 10
317.16910277
 20
-289.4936007025
 10
316.6622625392
 20
-287.4794136094
 10
316.3800080225
 20
-285.450618405
 10
316.3234990643
 20
-283.4155518441
 10
316.4929678721
 20
-281.3825764516
 10
316.8877180621
 20
-279.3600461596
 10
317.5061275212
 20
-277.3562719787
 10
318.3456550722
 20
-275.379487847
 10
319.4028509163
 20
-273.4378167945
 10
320.6733708092
 20
-271.539237564
 10
322.1519939119
 20
-269.6915518247
 10
323.832644245
 20
-267.9023521138
 10
325.7084156558
 20
-266.1789906366
 10
327.7716001973
 20
-264.5285490551
 10
330.0137198015
 20
-262.9578093878
 10
332.425561118
 20
-261.4732261408
  0
LWPOLYLINE
  5
E7
330
1F
100
AcDbEntity
  8
0
  6
Continuous
 62
     7
370
    25
100
AcDbPolyline
 90
       93
 70
   128
 43
0.0
 10
337.0924658739
 20
-264.1673729098
 10
334.8367236575
 20
-265.561701783
 10
332.7510666908
 20
-267.0416462612
 10
330.8452192694
 20
-268.6003061603
 10
329.1280673337
 20
-270.2304142882
 10
327.6076170388
 20
-271.9243703284
 10
326.2909574258
 20
-273.6742762758
 10
325.1842273695
 20
-275.4719732611
 10
324.2925869564
 20
-277.3090795912
 10
323.6201934258
 20
-279.1770298282
 10
323.1701817866
 20
-281.0671147259
 10
322.9446502008
 20
-282.970521836
 10
322.9446502008
 20
-284.8783765959
 10
323.1701817866
 20
-286.781783706
 10
323.6201934258
 20
-288.6718686037
 10
324.2925869564
 20
-290.5398188407
 10
325.1842273695
 20
-292.3769251707
 10
326.2909574258
 20
-294.1746221561
 10
327.6076170388
 20
-295.9245281035
 10
329.1280673337
 20
-297.6184841436
 10
330.8452192694
 20
-299.2485922715
 10
332.7510666908
 20
-300.8072521706
 10
334.8367236575
 20
-302.2871966489
 10
337.0924658739
 20
-303.681525522
 10
339.5077760285
 20
-304.9837377852
 10
342.0713928305
 20
-306.1877619237
 10
344.7713635148
 20
-307.2879842212
 10
347.5950995719
 20
-308.2792749334
 10
350.5294354407
 20
-309.1570122055
 10
353.5606898928
 20
-309.9171036211
 10
356.6747298207
 20
-310.5560052832
 10
359.8570361327
 20
-311.0707383372
 10
363.0927714479
 20
-311.4589028602
 10
366.3668492745
 20
-311.7186890498
 10
369.6640043503
 20
-311.848885663
 10
372.9688638163
 20
-311.848885663
 10
376.2660188921
 20
-311.7186890498
 10
379.5400967187
 20
-311.4589028602
 10
382.7758320339
 20
-311.0707383372
 10
385.958138346
 20
-310.5560052832
 10
389.0721782739
 20
-309.9171036211
 10
392.103432726
 20
-309.1570122055
 10
395.0377685947
 20
-308.2792749334
 10
397.8615046518
 20
-307.2879842212
 10
400.5614753361
 20
-306.1877619237
 10
403.1250921381
 20
-304.9837377852
 10
405.5404022927
 20
-303.681525522
 10
407.7961445092
 20
-302.2871966489
 10
409.8818014758
 20
-300.8072521706
 10
411.7876488972
 20
-299.2485922715
 10
413.5048008329
 20
-297.6184841436
 10
415.0252511278
 20
-295.9245281035
 10
416.3419107409
 20
-294.1746221561
 10
417.4486407971
 20
-292.3769251707
 10
418.3402812102
 20
-290.5398188407
 10
419.0126747408
 20
-288.6718686037
 10
419.46268638
 20
-286.781783706
 10
419.6882179658
 20
-284.8783765959
 10
419.6882179658
 20
-282.970521836
 10
419.46268638
 20
-281.0671147259
 10
419.0126747408
 20
-279.1770298282
 10
418.3402812102
 20
-277.3090795912
 10
417.4486407971
 20
-275.4719732611
 10
416.3419107409
 20
-273.6742762758
 10
415.0252511278
 20
-271.9243703284
 10
413.5048008329
 20
-270.2304142882
 10
411.7876488972
 20
-268.6003061603
 10
409.8818014758
 20
-267.0416462612
 10
407.7961445092
 20
-265.561701783
 10
405.5404022927
 20
-264.1673729098
 10
403.1250921381
 20
-262.8651606466
 10
400.5614753361
 20
-261.6611365082
 10
397.8615046518
 20
-260.5609142107
 10
395.0377685947
 20
-259.5696234984
 10
392.103432726
 20
-258.6918862263
 10
389.0721782739
 20
-257.9317948107
 10
385.9581383459
 20
-257.2928931487
 10
382.7758320339
 20
-256.7781600946
 10
379.5400967187
 20
-256.3899955717
 10
376.2660188921
 20
-256.1302093821
 10
372.9688638163
 20
-256.0000127689
 10
369.6640043503
 20
-256.0000127689
 10
366.3668492745
 20
-256.1302093821
 10
363.0927714479
 20
-256.3899955717
 10
359.8570361327
 20
-256.7781600946
 10
356.6747298207
 20
-257.2928931487
 10
353.5606898928
 20
-257.9317948107
 10
350.5294354406
 20
-258.6918862263
 10
347.5950995719
 20
-259.5696234984
 10
344.7713635148
 20
-260.5609142107
 10
342.0713928305
 20
-261.6611365082
 10
339.5077760285
 20
-262.8651606466
 10
337.0924658739
 20
-264.1673729098
  0
LWPOLYLINE
  5
E8
330
1F
100
AcDbEntity
  8
0
  6
Continuous
 62
     1
370
    25
100
AcDbPolyline
 90
       14
 70
   128
 43
0.0
 10
410.2073070486
 20
-174.9199000809
 10
412.6990538347
 20
-176.2660829952
 10
415.1805614988
 20
-177.4221903813
 10
417.6416329936
 20
-178.3834715459
 10
420.0721552484
 20
-179.1459763785
 10
422.462140726
 20
-179.7065715832
 10
424.8017684634
 20
-180.0629535541
 10
427.0814244283
 20
-180.2136578412
 10
429.2917410254
 20
-180.1580651683
 10
431.4236355897
 20
-179.8964039775
 10
433.4683477091
 20
-179.4297494909
 10
435.417475223
 20
-178.7600192918
 10
437.2630087482
 20
-177.8899654453
 10
437.7050721961
 20
-177.6428428581
  0
LWPOLYLINE
  5
E9
330
1F
100
AcDbEntity
  8
0
  6
Continuous
 62
     1
370
    25
100
AcDbPolyline
 90
       38
 70
   128
 43
0.0
 10
382.7095419011
 20
-82.3774679963
 10
381.4172495053
 20
-83.1971476651
 10
379.8011981837
 20
-84.4563146115
 10
378.3100920854
 20
-85.902672061
 10
376.9500584854
 20
-87.5302766207
 10
375.7266860533
 20
-89.3324401143
 10
374.645001889
 20
-91.3017570655
 10
373.7094508647
 20
-93.4301351284
 10
372.9238773602
 20
-95.7088283412
 10
372.2915094656
 20
-98.1284730645
 10
371.8149457162
 20
-100.6791264593
 10
371.4961444146
 20
-103.3503073437
 10
371.3364155838
 20
-106.1310392623
 10
371.3364155838
 20
-109.0098955913
 10
371.4961444146
 20
-111.9750464924
 10
371.8149457162
 20
-115.0143075248
 10
372.2915094656
 20
-118.1151897127
 10
372.9238773602
 20
-121.2649508663
 10
373.7094508647
 20
-124.4506479412
 10
374.645001889
 20
-127.6591902249
 10
375.7266860533
 20
-130.8773931288
 10
376.9500584854
 20
-134.0920323671
 10
378.3100920854
 20
-137.2898982974
 10
379.8011981837
 20
-140.4578502028
 10
381.4172495053
 20
-143.5828702894
 10
383.1516053489
 20
-146.6521171792
 10
384.9971388742
 20
-149.6529786785
 10
386.946266388
 20
-152.5731236037
 10
388.9909785075
 20
-155.4005524529
 10
391.1228730718
 20
-158.1236467145
 10
393.3331896689
 20
-160.73121661
 10
395.6128456337
 20
-163.2125470756
 10
397.9524733711
 20
-165.5574417919
 10
400.3424588487
 20
-167.7562650837
 10
402.7729811035
 20
-169.7999815145
 10
405.2340525983
 20
-171.6801930149
 10
407.7155602624
 20
-173.3891733927
 10
410.2073070486
 20
-174.9199000809
  0
LWPOLYLINE
  5
EA
330
1F
100
AcDbEntity
  8
0
  6
Continuous
 62
     1
370
    25
100
AcDbPolyline
 90
       14
 70
   128
 43
0.0
 10
410.2073070486
 20
-174.9199000809
 10
412.6191483652
 20
-176.4044833279
 10
414.8612679693
 20
-177.9752229952
 10
416.9244525108
 20
-179.6256645767
 10
418.8002239216
 20
-181.3490260539
 10
420.4808742547
 20
-183.1382257648
 10
421.9594973574
 20
-184.9859115041
 10
423.2300172503
 20
-186.8844907346
 10
424.2872130944
 20
-188.8261617872
 10
425.1267406454
 20
-190.8029459188
 10
425.7451501045
 20
-192.8067200997
 10
426.1399002945
 20
-194.8292503917
 10
426.3093691023
 20
-196.8622257842
 10
426.3164340833
 20
-197.371123156
  0
LWPOLYLINE
  5
EB
330
1F
100
AcDbEntity
  8
0
  6
Continuous
 62
     1
370
    25
100
AcDbPolyline
 90
       38
 70
   128
 43
0.0
 10
316.3164340833
 20
-197.371123156
 10
316.3800080225
 20
-195.844953967
 10
316.6622625392
 20
-193.8161587626
 10
317.16910277
 20
-191.8019716694
 10
317.8984459998
 20
-189.8106694143
 10
318.8472952007
 20
-187.8504346854
 10
320.0117513479
 20
-185.9293225075
 10
321.3870294413
 20
-184.0552271428
 10
322.9674781682
 20
-182.235849651
 10
324.7466031258
 20
-180.4786662446
 10
326.7170935079
 20
-178.7908975671
 10
328.870852147
 20
-177.1794790219
 10
331.1990287868
 20
-175.6510322736
 10
333.6920564502
 20
-174.2118380376
 10
336.3396907516
 20
-172.8678102719
 10
339.1310519939
 20
-171.6244718747
 10
342.054669875
 20
-170.4869319903
 10
345.0985306218
 20
-169.4598650141
 10
348.2501263576
 20
-168.5474913845
 10
351.4965064996
 20
-167.7535602405
 10
354.8243309754
 20
-167.0813340154
 10
358.2199250404
 20
-166.5335750311
 10
361.6693354703
 20
-166.1125341467
 10
365.1583878976
 20
-165.8199415094
 10
368.6727450577
 20
-165.6569994452
 10
372.197965703
 20
-165.624377518
 10
375.7195639458
 20
-165.7222097784
 10
379.2230687835
 20
-165.9500942124
 10
382.6940835633
 20
-166.3070943942
 10
386.1183451408
 20
-166.7917433333
 10
389.4817824908
 20
-167.4020495034
 10
392.7705745278
 20
-168.1355050255
 10
395.9712068998
 20
-168.9890959735
 10
399.0705275218
 20
-169.9593147591
 10
402.0558006207
 20
-171.0421745453
 10
404.9147590689
 20
-172.2332256288
 10
407.6356547929
 20
-173.5275737253
 10
410.2073070486
 20
-174.9199000809
  0
ENDSEC
  0
SECTION
  2
OBJECTS
  0
DICTIONARY
  5
C
330
0
100
AcDbDictionary
281
     1
  3
ACAD_GROUP
350
D
  3
ACAD_LAYOUT
350
1A
  3
ACAD_MLINESTYLE
350
17
  3
ACAD_PLOTSETTINGS
350
19
  3
ACAD_PLOTSTYLENAME
350
E
  3
ACAD_SCALELIST
350
47
  3
DWGPROPS
350
EC
  0
DICTIONARY
  5
D
102
{ACAD_REACTORS
330
C
102
}
330
C
100
AcDbDictionary
281
     1
  0
DICTIONARY
  5
1A
102
{ACAD_REACTORS
330
C
102
}
330
C
100
AcDbDictionary
281
     1
  3
Layout1
350
1E
  3
Layout2
350
26
  3
Model
350
22
  0
DICTIONARY
  5
17
102
{ACAD_REACTORS
330
C
102
}
330
C
100
AcDbDictionary
281
     1
  3
Standard
350
18
  0
DICTIONARY
  5
19
102
{ACAD_REACTORS
330
C
102
}
330
C
100
AcDbDictionary
281
     1
  0
ACDBDICTIONARYWDFLT
  5
E
102
{ACAD_REACTORS
330
C
102
}
330
C
100
AcDbDictionary
281
     1
  3
Normal
350
F
100
AcDbDictionaryWithDefault
340
F
  0
DICTIONARY
  5
47
102
{ACAD_REACTORS
330
C
102
}
330
C
100
AcDbDictionary
281
     1
  3
A0
350
48
  3
A1
350
49
  3
A2
350
4A
  3
A3
350
4B
  3
A4
350
4C
  3
A5
350
4D
  3
A6
350
4E
  3
A7
350
4F
  3
A8
350
50
  3
A9
350
51
  3
B0
350
52
  3
B1
350
53
  3
B2
350
54
  3
B3
350
55
  3
B4
350
56
  3
B5
350
57
  3
B6
350
58
  3
B7
350
59
  3
B8
350
5A
  3
B9
350
5B
  3
C0
350
5C
  3
C1
350
5D
  3
C2
350
5E
  3
C3
350
5F
  3
C4
350
60
  3
C5
350
61
  3
C6
350
62
  3
C7
350
63
  3
C8
350
64
  3
C9
350
65
  3
D0
350
66
  3
D1
350
67
  3
D2
350
68
  0
XRECORD
  5
EC
102
{ACAD_REACTORS
330
C
102
}
330
C
100
AcDbXrecord
280
     1
  1
DWGPROPS COOKIE
  2

  3

  4

  6

  7

  8
b.kav
  9

300
=
301
=
302
=
303
=
304
=
305
=
306
=
307
=
308
=
309
=
 40
0.0
 41
2459935.574835266
 42
2459935.57483544
  1

 90
        0
  0
LAYOUT
  5
1E
102
{ACAD_REACTORS
330
1A
102
}
330
1A
100
AcDbPlotSettings
  1

  2
none_device
  4

  6

 40
0.0
 41
0.0
 42
0.0
 43
0.0
 44
0.0
 45
0.0
 46
0.0
 47
0.0
 48
0.0
 49
0.0
140
0.0
141
0.0
142
1.0
143
1.0
 70
   688
 72
     1
 73
     0
 74
     5
  7

 75
    16
147
1.0
148
0.0
149
0.0
100
AcDbLayout
  1
Layout1
 70
     1
 71
     1
 10
0.0
 20
0.0
 11
420.0
 21
297.0
 12
0.0
 22
0.0
 32
0.0
 14
1.0000000000E+20
 24
1.0000000000E+20
 34
1.0000000000E+20
 15
-1.0000000000E+20
 25
-1.0000000000E+20
 35
-1.0000000000E+20
146
0.0
 13
0.0
 23
0.0
 33
0.0
 16
1.0
 26
0.0
 36
0.0
 17
0.0
 27
1.0
 37
0.0
 76
     0
330
1B
  0
LAYOUT
  5
26
102
{ACAD_REACTORS
330
1A
102
}
330
1A
100
AcDbPlotSettings
  1

  2
none_device
  4

  6

 40
0.0
 41
0.0
 42
0.0
 43
0.0
 44
0.0
 45
0.0
 46
0.0
 47
0.0
 48
0.0
 49
0.0
140
0.0
141
0.0
142
1.0
143
1.0
 70
   688
 72
     1
 73
     0
 74
     5
  7

 75
    16
147
1.0
148
0.0
149
0.0
100
AcDbLayout
  1
Layout2
 70
     1
 71
     2
 10
0.0
 20
0.0
 11
0.0
 21
0.0
 12
0.0
 22
0.0
 32
0.0
 14
0.0
 24
0.0
 34
0.0
 15
0.0
 25
0.0
 35
0.0
146
0.0
 13
0.0
 23
0.0
 33
0.0
 16
1.0
 26
0.0
 36
0.0
 17
0.0
 27
1.0
 37
0.0
 76
     0
330
23
  0
LAYOUT
  5
22
102
{ACAD_REACTORS
330
1A
102
}
330
1A
100
AcDbPlotSettings
  1

  2
none_device
  4
Letter_(8.50_x_11.00_Inches)
  6

 40
6.35
 41
6.35
 42
6.35000508
 43
6.35000508
 44
215.9
 45
279.4
 46
0.0
 47
0.0
 48
0.0
 49
0.0
140
0.0
141
0.0
142
1.0
143
1.0
 70
  1712
 72
     1
 73
     0
 74
     0
  7

 75
     0
147
1.0
148
0.0
149
0.0
100
AcDbLayout
  1
Model
 70
     1
 71
     0
 10
0.0
 20
0.0
 11
279.4
 21
215.9
 12
0.0
 22
0.0
 32
0.0
 14
0.0
 24
0.0
 34
0.0
 15
279.4
 25
215.9
 35
0.0
146
0.0
 13
0.0
 23
0.0
 33
0.0
 16
1.0
 26
0.0
 36
0.0
 17
0.0
 27
1.0
 37
0.0
 76
     0
330
1F
331
29
  0
MLINESTYLE
  5
18
102
{ACAD_REACTORS
330
17
102
}
330
17
100
AcDbMlineStyle
  2
Standard
 70
     0
  3

 62
   256
 51
90.0
 52
90.0
 71
     2
 49
0.5
 62
   256
  6
BYLAYER
 49
-0.5
 62
   256
  6
BYLAYER
  0
ACDBPLACEHOLDER
  5
F
102
{ACAD_REACTORS
330
E
102
}
330
E
  0
SCALE
  5
48
102
{ACAD_REACTORS
330
47
102
}
330
47
100
AcDbScale
 70
     0
300
1:1
140
1.0
141
1.0
290
     1
  0
SCALE
  5
49
102
{ACAD_REACTORS
330
47
102
}
330
47
100
AcDbScale
 70
     0
300
1:2
140
1.0
141
2.0
290
     0
  0
SCALE
  5
4A
102
{ACAD_REACTORS
330
47
102
}
330
47
100
AcDbScale
 70
     0
300
1:4
140
1.0
141
4.0
290
     0
  0
SCALE
  5
4B
102
{ACAD_REACTORS
330
47
102
}
330
47
100
AcDbScale
 70
     0
300
1:5
140
1.0
141
5.0
290
     0
  0
SCALE
  5
4C
102
{ACAD_REACTORS
330
47
102
}
330
47
100
AcDbScale
 70
     0
300
1:8
140
1.0
141
8.0
290
     0
  0
SCALE
  5
4D
102
{ACAD_REACTORS
330
47
102
}
330
47
100
AcDbScale
 70
     0
300
1:10
140
1.0
141
10.0
290
     0
  0
SCALE
  5
4E
102
{ACAD_REACTORS
330
47
102
}
330
47
100
AcDbScale
 70
     0
300
1:16
140
1.0
141
16.0
290
     0
  0
SCALE
  5
4F
102
{ACAD_REACTORS
330
47
102
}
330
47
100
AcDbScale
 70
     0
300
1:20
140
1.0
141
20.0
290
     0
  0
SCALE
  5
50
102
{ACAD_REACTORS
330
47
102
}
330
47
100
AcDbScale
 70
     0
300
1:30
140
1.0
141
30.0
290
     0
  0
SCALE
  5
51
102
{ACAD_REACTORS
330
47
102
}
330
47
100
AcDbScale
 70
     0
300
1:40
140
1.0
141
40.0
290
     0
  0
SCALE
  5
52
102
{ACAD_REACTORS
330
47
102
}
330
47
100
AcDbScale
 70
     0
300
1:50
140
1.0
141
50.0
290
     0
  0
SCALE
  5
53
102
{ACAD_REACTORS
330
47
102
}
330
47
100
AcDbScale
 70
     0
300
1:100
140
1.0
141
100.0
290
     0
  0
SCALE
  5
54
102
{ACAD_REACTORS
330
47
102
}
330
47
100
AcDbScale
 70
     0
300
2:1
140
2.0
141
1.0
290
     0
  0
SCALE
  5
55
102
{ACAD_REACTORS
330
47
102
}
330
47
100
AcDbScale
 70
     0
300
4:1
140
4.0
141
1.0
290
     0
  0
SCALE
  5
56
102
{ACAD_REACTORS
330
47
102
}
330
47
100
AcDbScale
 70
     0
300
8:1
140
8.0
141
1.0
290
     0
  0
SCALE
  5
57
102
{ACAD_REACTORS
330
47
102
}
330
47
100
AcDbScale
 70
     0
300
10:1
140
10.0
141
1.0
290
     0
  0
SCALE
  5
58
102
{ACAD_REACTORS
330
47
102
}
330
47
100
AcDbScale
 70
     0
300
100:1
140
100.0
141
1.0
290
     0
  0
SCALE
  5
59
102
{ACAD_REACTORS
330
47
102
}
330
47
100
AcDbScale
 70
     0
300
1/128" = 1'-0"
140
0.0078125
141
12.0
290
     0
  0
SCALE
  5
5A
102
{ACAD_REACTORS
330
47
102
}
330
47
100
AcDbScale
 70
     0
300
1/64" = 1'-0"
140
0.015625
141
12.0
290
     0
  0
SCALE
  5
5B
102
{ACAD_REACTORS
330
47
102
}
330
47
100
AcDbScale
 70
     0
300
1/32" = 1'-0"
140
0.03125
141
12.0
290
     0
  0
SCALE
  5
5C
102
{ACAD_REACTORS
330
47
102
}
330
47
100
AcDbScale
 70
     0
300
1/16" = 1'-0"
140
0.0625
141
12.0
290
     0
  0
SCALE
  5
5D
102
{ACAD_REACTORS
330
47
102
}
330
47
100
AcDbScale
 70
     0
300
3/32" = 1'-0"
140
0.09375
141
12.0
290
     0
  0
SCALE
  5
5E
102
{ACAD_REACTORS
330
47
102
}
330
47
100
AcDbScale
 70
     0
300
1/8" = 1'-0"
140
0.125
141
12.0
290
     0
  0
SCALE
  5
5F
102
{ACAD_REACTORS
330
47
102
}
330
47
100
AcDbScale
 70
     0
300
3/16" = 1'-0"
140
0.1875
141
12.0
290
     0
  0
SCALE
  5
60
102
{ACAD_REACTORS
330
47
102
}
330
47
100
AcDbScale
 70
     0
300
1/4" = 1'-0"
140
0.25
141
12.0
290
     0
  0
SCALE
  5
61
102
{ACAD_REACTORS
330
47
102
}
330
47
100
AcDbScale
 70
     0
300
3/8" = 1'-0"
140
0.375
141
12.0
290
     0
  0
SCALE
  5
62
102
{ACAD_REACTORS
330
47
102
}
330
47
100
AcDbScale
 70
     0
300
1/2" = 1'-0"
140
0.5
141
12.0
290
     0
  0
SCALE
  5
63
102
{ACAD_REACTORS
330
47
102
}
330
47
100
AcDbScale
 70
     0
300
3/4" = 1'-0"
140
0.75
141
12.0
290
     0
  0
SCALE
  5
64
102
{ACAD_REACTORS
330
47
102
}
330
47
100
AcDbScale
 70
     0
300
1" = 1'-0"
140
1.0
141
12.0
290
     0
  0
SCALE
  5
65
102
{ACAD_REACTORS
330
47
102
}
330
47
100
AcDbScale
 70
     0
300
1-1/2" = 1'-0"
140
1.5
141
12.0
290
     0
  0
SCALE
  5
66
102
{ACAD_REACTORS
330
47
102
}
330
47
100
AcDbScale
 70
     0
300
3" = 1'-0"
140
3.0
141
12.0
290
     0
  0
SCALE
  5
67
102
{ACAD_REACTORS
330
47
102
}
330
47
100
AcDbScale
 70
     0
300
6" = 1'-0"
140
6.0
141
12.0
290
     0
  0
SCALE
  5
68
102
{ACAD_REACTORS
330
47
102
}
330
47
100
AcDbScale
 70
     0
300
1'-0" = 1'-0"
140
12.0
141
12.0
290
     0
  0
ENDSEC
  0
EOF
